Dissertation

Disponible uniquement sur Etudier
  • Pages : 7 (1664 mots )
  • Téléchargement(s) : 0
  • Publié le : 9 octobre 2010
Lire le document complet
Aperçu du document
La chanson se joue a deux guitare,
Car a certain moments deux partie sont jouées en même temps!
Nous considereront que la guiatre 2 joue les arpeges,
Tandis que la guitare 1 joue les accords du refrain.

Intro
e|-----------------------------------------------| NADA SURF Popular
B|-------0-----------0-----------0--------0------|G|-----------------------------------------------| Partie 1 x3
D|-----------------------------------------------|
A|-3--3--------3--3-----0--2--2-----2-----------0|
E|-------------------------------------0--0------|

e|-----------------------------------------------|
B|-----------------------------------------------|
G|-------2-----------2-----------4-----------4---| Partie 2 x1
D|----4-----4-----4-----4-----4-----4-----4-----4|A|-3-----------3-----------2-----------2---------|
E|-----------------------------------------------|

Voila l'intro pour jouer la partie 1,
Posez votre main sur la guitare et jouez les cordes graves avec le pouce.
Et la corde de si avec l'index!
Si vous jouez avec un méditor pas de tecnique particuliere.

Couplet 1
e|-----------------------------------------------|B|-------0-----------0-----------0--------0------|
G|-----------------------------------------------|
D|-----------------------------------------------|
A|-3--3--------3--3-----0--2--2-----2-----------0|
E|-------------------------------------0--0------|
[..]
(L'intro s'arrete a "breaking", et la partie 1 est jouée a partie de "up".)
[..]

e|-----------------------------------------------|B|-------0-----------0-----------0--------0------|
G|-----------------------------------------------|
D|-----------------------------------------------|
A|-3--3--------3--3-----0--2--2-----2-----------0|
E|-------------------------------------0--0------|
[..]

e|-----------------------------------------------|
B|-------0-----------0-----------0--------0------|
G|-----------------------------------------------|D|-----------------------------------------------|
A|-3--3--------3--3-----0--2--2-----2-----------0|
E|-------------------------------------0--0------|
[..]

e|-----------------------------------------------|
B|-----------------------------------------------|
G|-------2-----------2-----------4-----------4---| x1
D|----4-----4-----4-----4-----4-----4-----4-----4|A|-3-----------3-----------2-----------2---------|
E|-----------------------------------------------|
[..]

e|-----------------------------------------------|
B|-------0-----------0-----------0--------0------|
G|-----------------------------------------------|
D|-----------------------------------------------|
A|-3--3--------3--3-----0--2--2-----2-----------0|
E|-------------------------------------0--0------|[..]

e|-----------------------------------------------|
B|-------0-----------0-----------0--------0------|
G|-----------------------------------------------| x1
D|-----------------------------------------------|
A|-3--3--------3--3-----0--2--2-----2-----------0|
E|-------------------------------------0--0------|
[..]

e|-----------------------------------------------|B|-------0-----------0-----------0--------0------|
G|-----------------------------------------------| x1
D|-----------------------------------------------|
A|-3--3--------3--3-----0--2--2-----2-----------0|
E|-------------------------------------0--0------|
[..]

e|-----------------------------------------------|
B|-----------------------------------------------|G|-------2-----------2-----------4-----------4---| x1
D|----4-----4-----4-----4-----4-----4-----4-----4|
A|-3-----------3-----------2-----------2---------|
E|-----------------------------------------------|
[..]

Refrain

e|-----------------------------------------------|
B|-----------------------------------------------|
G|-----------------------------------------------| x1
D|-7--7--7--7--7--7--7--7--5--5--5--5--5--5--5--5|...
tracking img