Part basse

Disponible uniquement sur Etudier
  • Pages : 9 (2214 mots )
  • Téléchargement(s) : 0
  • Publié le : 2 novembre 2010
Lire le document complet
Aperçu du document
Muse
Starlight
Black Holes and Revelations

Intro

G|------------------------------------
D|------------------------------------
A|------------------------------------
E|--77777777777777777777777777777777--

Verse Pt.1

G|---------------------------------------------------------------------------------D|---------------------------------------------------------------------------------
A|--------------------------------------9-11-11-11-11-11-11-11-11-7-7-7-7-7-6-7-9--
E|--7-7-7-7-7-7-7-7-9-9-9-9-9-9-9-9-7-9--------------------------------------------

Chorus

G|-------------------------------------------------------------------
D|-------------------------------------------------------------------
A|--4-4-4-4---------6-6-6-6---------0-0-0-0---------0-0-0-0-6-6-6-6--E|----------2-2-2-2---------4-4-4-4---------0-0-0-0------------------

Bridge

G|------------------------------------------------------------------
D|------------------------------------------------------------------
A|-----------------6-6-6-6-6-6-6-6-4-4-4-4-4-4-4-4-2-2-2-2-2-2-2-2--
E|-4-4-4-4-4-4-4-4--------------------------------------------------G|------------------------------------------------------------------
D|------------------------------------------------------------------
A|-----------------6-6-6-6-6-6-6-6-7-7-7-7-7-7-7-7-9-9-9-9-9-9-9-9--
E|-4-4-4-4-4-4-4-4--------------------------------------------------

Intro
Verse x4
Chorus

Extended Bridge

G|------------------------------------------------------------------D|------------------------------------------------------------------
A|---------6-6-6-6-7-7-7-7-2-2-2-2---------6-6-6-6-7-7-7-7-2-2-2-2--
E|-4-4-4-4-------------------------4-4-4-4--------------------------

G|-----------------------------------------------------------------
D|-----------------------------------------------------------------
A|-----------------6-6-6-6-6-6-6-6-7-7-7-7-7-7-7-7-2-2-2-2-2-2-2-2-E|-4-4-4-4-4-4-4-4-------------------------------------------------

G|-----------------------------------------------------------------
D|-----------------------------------------------------------------
A|-----------------6-6-6-6-6-6-6-6-7-7-7-7-7-7-7-7-9-9-9-9-9-9-9-9-
E|-4-4-4-4-4-4-4-4-------------------------------------------------

Outro (Same as Verse)G|--------------------------------------------------------------------------
D|--------------------------------------------------------------------------
A|-------------------------------9-11-11-11-11-11-11-11-11-7-7-7-7-7-6-7-9--
E|-7-7-7-7-7-7-7-7-9-9-9-9-9-7-9--------------------------------------------

Muse
Hysteria

use distortion.

G-------------------------------------------------------------------D-------------------------------------------------------------------
A-0-0-10 -0-10-12-0-10-0-7-0-8-8-7-5-7--------------------
E-------------------------------------------------------------------

G------------------------------------------------------------------
D------------------------------------------------------------------
A------------------------------------------------------------------E-0-0-10-0-10-12-0-15-0-12-0-15-15-0-15-17-------------

G----------------------------------------------------------------
D-0-0-10-0-10-12-0-10-0-10-9-0-9-8-0-8---------------
A----------------------------------------------------------------
E----------------------------------------------------------------

G-------------------------------------------------------------------D-7------------------------------------------------------------------
A---0-10 -0-10-12-0-10-0-7-0-8-8-7-5-7--------------------
E-------------------------------------------------------------------

The Heavy Bit

G--------------------------------------------------------------
D--------------------------------------------------------------
A--------------------------------------------------------------...
tracking img