Tablature

Disponible uniquement sur Etudier
  • Pages : 11 (2725 mots )
  • Téléchargement(s) : 0
  • Publié le : 19 mai 2010
Lire le document complet
Aperçu du document
*Intro:

E -------5-5--5-------------5-5---------5----------------------
B ---5-8--------8--5-5--5-8-------5-5-------8---------5---5----
G -------8-8----------------8-8---8-8--------------5--5---5----
D -----------------7-7----------7-----7---7------7------7------
A -------------------------------------------------------------
E ---------------------------------------------5---------------E -------------------------------------------------------------
B -------------------------------------------------------------
G -----5-----5-----5-----5-----5-----5-----5-------------------
D ---7-----7-----7-----7-----7-----7-----7-----5---------------
A -6-----6-----6-----6-----7-----7-----7-----7-----------------
E -------------------------------------------------------------

E-------------------------------------------------------------
B ----------------------5-5------------------------------------
G ----8-8---8-8---8-8---8-8----5-5---5-5----5-5----5-5---------
D ----7-7---7-7---7-7---7-7----6-6---6-6----6-6----6-6---------
A --6-----6-----6-----6------7-----7-8-7--5------5-------------
E -------------------------------------------------------------

E----------------5-5----5-5---5-5----5-5-----7----------------
B ----------6-6---6-6----6-6---6-6----6-6-----8----------------
G ----5-5---5-5---5-5----5-5---5-5----5-5-----7----------------
D ----7-7---7-7---7-7----7-7---7-7----7-7--------5-------------
A -----------------------------------------------5---7---------
E --8-----8-----8------8-----8------8------8---------8---------

That last ringingchange is as best I can figure it (I think a capo would help
here!!). Anyway, from here you mosey on into....

*Verse:

E ------------------------------------------------------------
B --------8------------8------------8------------8------------
G --------5-5----------5-5----------5-5----------5-5----------
D ------5------------5------------5------------5--------------
A----7------------7------------7------------7----------------
E --8---------7--5---------7--8---------7--5---------7--------

The above is how it is played the very first time through, ending the
ascension on the high G rather than the higher C on the top string. After
that, it just mutates into

E --------8------------8------------8------------8------------
B--------8------------8------------8------------8------------
G --------5-5----------5-5----------5-5----------5-5----------
D ------5------------5------------5------------5--------------
A ----7------------7------------7------------7-------7-8------
E --8---------7--5---------7--8---------7--5------------------

E --------5--5--5-----7------------------8-----5^7-----7-----
B --------6--6---6------8----8--8----------8-------8-----8---
G------5-5--5-----5------7--5--5--5---------5-------7-----5-
D ----7-------------------------------5--------5-------5-----
A --8--------------------------------------------------------
E ---------------------------8-----------8-------------------

E ------------------------7-------------5-------------5-----
B ------(8------------------8-------------5-------------6---
G-------(5-----5-------5-----7------5------5------5------5-
D --------(5------5---7---5--------7-------------7----------
A -------------7----8--------------------------8------8-----
E ---8---------------------------5------5-------------------

The ( notes are picked rapidly, almost like a strum or "roll".

E ---7-----7----7------7---8-----8----- | -----8----------
B -----8----------5----------5--------- |-----5----5-----
G -------7----------7----------5------- | -----5----5-----
D ---5-----5----6------6---7-----7---7- | -----7----5-----
A ------------------------------------- | ----------------
E ------------------------------------- | ----------------

*Chorus:

E ----------5---------5--------------------------------------
B ---6------------------6-----5------5---------------5---8---
G...
tracking img