Blink 182

Disponible uniquement sur Etudier
  • Pages : 2 (330 mots )
  • Téléchargement(s) : 0
  • Publié le : 8 décembre 2010
Lire le document complet
Aperçu du document
Blink 182 - Dammit

Tabbed by Guzzo - CBEAST83@aol.com

Intro part, play with alot of distortion (and possibly chorus).

e-------------------------------------------------------B-------------------------------------------------------

G-------------------------------------------------------

D-----0-0-2-------0-0-2-------0-0-2-------2-2-0---------A-3-3---------------------0-0---------------------------

E-------------3-3---------------------1-1---------------

"It's all right to tell me what you think about me"...(all verse parts)e-------------------------------------------------------

B-------------------------------------------------------

G--5-5-5-5-5-5------------------------------------------

D--5-5-5-5-5-5--5-5-5-5-5-5--7-7-7-7-7-7--3-3-3-3-3-----A--3-3-3-3-3-3--5-5-5-5-5-5--7-7-7-7-7-7--3-3-3-3-3-----

E---------------3-3-3-3-3-3--5-5-5-5-5-5--1-1-1-1-1-----

*palm mute all strums but the first of each chord.

verse2 - same thing asfirst verse but hit each chord 5 times w/o palmmute

chorus-"And its happened once again..."

same chords but different rhythm

e-----------------

B-----------------

G--5--------------D--5---5---7--3---

A--3---5---7--3---

E------3---5--1---

Bridge. (Clean) 2x

e------------------------------------------------------------------------------B------------------------------------------------------------------------------

G------------------------------------------------------------------------------D--2------0--2------2---------0-2---0-2----2-----------------------------------

A----3---------3------3-----------3-----3----3---------------------------------

E------3----------------3----------------------3-------------------------------

blink 182dammit

intro 4x

verse 2x (it's alright to tell me, what you think about me...")

verse2 2x (i know that your leaving, you must have your reasons")

intro 2x

verse 2x (the steps...
tracking img